How to play Breaking The Girl by RHCP

The Red Hot Chili Peppers Breaking The Girl is a great song to play with a Capo.  Personally it is one of my favourites as it was one of the first songs I ever learned to play the whole way through.  I also really enjoy playing it as to me at least, it is one of those songs you can really GET INTO whilst playing.   I think because of the strumming pattern, and the hard strums you do it compels you keep going to the point when you reach the end of the song,  you’ll probably do what I do and continue playing the chorus for a few more bars, that’s the thing when you do learn how to play breaking the girl, it’s kinda hard to stop….

You’ll see different versions of the song played if you google, on video and live I below he tunes his guitar down and the song start in an A, however to get the same tone you can use the Capo on the 4th fret, and the Capo version can then be played starting with an E letting you start with all strings playing.

Anyway, onto the song, and in true tradition of my lessons, a little history:

Back in the initial John Frusciante era, the Chili Peppers released Breaking The Girl in 1992 on their Blood Sugar Sex Magic album, one of the best albums of all time EVER!.    The album version is played with a 12 string guitar, but with the use of a Capo to brighten the sound, it will sound great blasted out on even the cheapest acoustic.

The topic of the song is based on a rocky relationship that existed between singer Anthony Kiedis and his supermodel girlfriend at the time Carmen Hawk.  And for those interested in the drums as well as guitar, Chad Smith said the drumming in Breaking The Girl was inspired by Mitch Mitchell.

Now lets see this great tune in action:

Original Music Video

Playing Advice

I always think the song sounds best played with a pick and when playing the single notes in between the strumming pattern, I always use my pinky finger so your other fingers remain in the same position for whichever chord you are playing.

Tablature

And the tablature that corresponds to the Capo version is as follows, remember place your Capo on the 4th fret:

E |--4-----0--0--0-------|--------0--0--0--0-------|--0-----0--0--0-------|
B |--0-----0--0--0-------|--------0--0--0--0-------|--0-----0--0--0-------|
G |--1-----1--1--1-------|--------1--1--1--1-------|--3-----4--4--4-------|
D |--2-----2--2--2-------|--------2--2--2--2-------|--4-----5--5--5-------|
A |--2-----2--2--2-------|--------2--2--2--2-------|--4-----5--5--5-------|
E |--0-----0--0--0-------|--4--0--0--0--0--0-------|--0-----0--0--0-------|

--------0--0--0--0-------|--0-----0--0--0-------|--------0--0--0--0-------|
--------0--0--0--0-------|--0-----0--0--0-------|--------0--0--0--0-------|
--------4--4--4--4-------|--6-----6--6--6-------|--------6--6--6--6-------|
--------5--5--5--5-------|--7-----7--7--7-------|--------7--7--7--7-------|
--------5--5--5--5-------|--7-----7--7--7-------|--------7--7--7--7-------|
--6--0--0--0--0--0-------|--0-----0--0--0-------|--8--0--0--0--0--0-------|

--0-------------------|----------------------|-------|--0-----0--0--0-------|
--0-----9--9--9-------|--9-----9--9--9-------|-------|--0-----0--0--0-------|
--8-----9--9--9-------|--9-----9--9--9-------|-------|--1-----1--1--1-------|
--9-----9--9--9-------|--9-----9--9--9-------|-------|--2-----2--2--2-------|
--9-----7--7--7-------|--7-----7--7--7-------|-------|--2-----2--2--2-------|
--0-----0--0--0-------|--0-----0--0--0-------|-------|--0-----0--0--0-------|

--------0--0--0--0-------|--0-----0--0--0-------|--------0--0--0--0-------|
--------0--0--0--0-------|--0-----0--0--0-------|--------0--0--0--0-------|
--------1--1--1--1-------|--3-----4--4--4-------|--------4--4--4--4-------|
--------2--2--2--2-------|--4-----5--5--5-------|--------5--5--5--5-------|
--------2--2--2--2-------|--4-----5--5--5-------|--------5--5--5--5-------|
--4--0--0--0--0--0-------|--0-----0--0--0-------|--6--0--0--0--0--0-------|

--0-----0--0--0-------|--------0--0--0--0-------|--0-------------------|
--0-----0--0--0-------|--------0--0--0--0-------|--0-----9--9--9-------|
--6-----6--6--6-------|--------6--6--6--6-------|--8-----9--9--9-------|
--7-----7--7--7-------|--------7--7--7--7-------|--9-----9--9--9-------|
--7-----7--7--7-------|--------7--7--7--7-------|--9-----7--7--7-------|
--0-----0--0--0-------|--8--0--0--0--0--0-------|--0-----0--0--0-------|

----------------------|----------------------|----------------------|
--9-----9--9--9-------|--9-----9--9--9-------|--9-----9--9--9-------|
--9-----9--9--9-------|--9-----9--9--9-------|--9-----9--9--9-------|
--9-----9--9--9-------|--9-----9--9--9-------|--9-----9--9--9-------|
--7-----7--7--7-------|--7-----7--7--7-------|--7-----7--7--7-------|
--0-----0--0--0-------|--0-----0--0--0-------|--0-----0--0--0-------|

--3-----3--3-------|--3----|--2-----2--2--2-------|--2----|--0-----0--0-------|
--0-----0--0-------|--0----|--3-----3--3--3-------|--3----|--0-----0--0-------|
--0-----0--0-------|--0----|--2-----2--2--2-------|--2----|--0-----0--0-------|
--0-----0--0-------|--0----|--------0--0--0-------|--0----|--2-----2--2-------|
--2-----2--2-------|--2----|----------------------|-------|--2-----2--2-------|
--3-----3--3-------|--3----|----------------------|-------|--0-----0--0-------|

--0-----0--0-------|--0--0-------|--0-----0--0-------|--3-----3--3-------|
--0-----0--0-------|--0--0-------|--0-----0--0-------|--0-----0--0-------|
--0-----0--0-------|--0--0-------|--0-----0--0-------|--0-----0--0-------|
--2-----2--2-------|--2--2-------|--2-----2--2-------|--0-----0--0-------|
--2-----2--2-------|--2--2-------|--2-----2--2-------|--2-----2--2-------|
--0-----0--0-------|--0--0-------|--0-----0--0-------|--3-----3--3-------|

--3----------------|--2-----2--2-------|--2-----2--2-------|--0-----0--0-------|
--0-----0--0-------|--3-----3--3-------|--3-----3--3-------|--1-----1--1-------|
--0-----0--0-------|--2-----2--2-------|--2-----2--2-------|--0-----0--0-------|
--0-----0--0-------|--0-----0--0-------|--0-----0--0-------|--2-----2--2-------|
--2-----2--2-------|-------------------|-------------------|--3-----3--3-------|
--3-----3--3-------|-------------------|-------------------|-------------------|

--0-----0--0--0-------|--0-----0--0--0--0-------|--0-----0--0--0-------|
--1-----1--1--1-------|--1-----1--1--1--1-------|--1-----1--1--1-------|
--0-----0--0--0-------|--0-----0--0--0--0-------|--0-----0--0--0-------|
--2-----2--2--2-------|--2-----2--2--2--2-------|--2-----2--2--2-------|
--3-----3--3--3-------|--3-----3--3--3--3-------|--3-----3--3--3-------|
----------------------|-------------------------|----------------------|

--0--0--0-------|----------------|--3-----3--3--3-------|--0-----0--0--0-------|
--0--0--0-------|--3--3--3-------|--0-----0--0--0-------|--1-----1--1--1-------|
--0--0--0-------|--2--2--2-------|--0-----0--0--0-------|--2-----2--2--2-------|
--2--2--2-------|--0--0--0-------|--0-----0--0--0-------|--2-----2--2--2-------|
--2--2--2-------|----------------|--2-----2--2--2-------|--0-----0--0--0-------|
--0--0--0-------|--2--2--2-------|--3-----3--3--3-------|----------------------|

-------------------|-------------------|----------------------|
--4-----4--4-------|--------4--4-------|--------4--4--4-------|
--4-----4--4-------|--------4--4-------|--------4--4--4-------|
--4-----4--4-------|--------4--4-------|--------4--4--4-------|
--2-----2--2-------|--0--------0-------|----------------------|
-------------------|-------------------|--3-------------------|

----------------------|--0-----0--0--0-------|----------------------|
--4--4--4--4--4-------|--0-----0--0--0-------|--3-----3--3--3-------|
--4--4--4--4--4-------|--0-----0--0--0-------|--2-----2--2--2-------|
--4--4--4--4--4-------|--2-----2--2--2-------|--0-----0--0--0-------|
----------------------|--2-----2--2--2-------|----------------------|
--2--2--2--2--2-------|--0-----0--0--0-------|--2-----3--3--3-------|

--3-----3--3--3-------|--0-----0--0--0-------|--0-----0--0--0-------|
--0-----0--0--0-------|--1-----1--1--1-------|--1-----1--1--1-------|
--0-----0--0--0-------|--2-----2--2--2-------|--0-----0--0--0-------|
--0-----0--0--0-------|--2-----2--2--2-------|--2-----2--2--2-------|
--2-----2--2--2-------|--0-----0--0--0-------|--3-----3--3--3-------|
--3-----3--3--3-------|----------------------|----------------------|

--0-----0--0--0-------|--0-----0--0-------|--0-----0--0-------|----------------|
--1-----1--1--1-------|--1-----1--1-------|--1-----1--1-------|--1--1--1-------|
--0-----0--0--0-------|--0-----0--0-------|--0-----0--0-------|--3--3--3-------|
--2-----2--2--2-------|--2-----2--2-------|--2-----2--2-------|--2--2--2-------|
--3-----3--3--3-------|--3-----3--3-------|--3-----3--3-------|--3--3--3-------|
----------------------|-------------------|-------------------|----------------|

----------------|--------0--0--0--0-------|--------0--0--0--0-------|
----------------|--------0--0--0--0-------|--------0--0--0--0-------|
--2--2--2-------|--------0--0--0--0-------|--------0--0--0--0-------|
--1--1--1-------|--------2--2--2--2-------|--------2--2--2--2-------|
--2--2--2-------|--------2--2--2--2-------|--------2--2--2--2-------|
----------------|--0-----0--0--0--0-------|--0-----0--0--0--0-------|

--------0--0--0--0-------|--3--3--3-------|-------|--0--0--0-------|
--------0--0--0--0-------|--0--0--0-------|-------|--0--0--0-------|
--------0--0--0--0-------|--0--0--0-------|-------|--0--0--0-------|
--------2--2--2--2-------|--0--0--0-------|-------|--2--2--2-------|
--------2--2--2--2-------|--2--2--2-------|-------|--2--2--2-------|
--0-----0--0--0--0-------|--3--3--3-------|-------|--0--0--0-------|

----------------|--3-----3--3--3-------|--0-----0--0--0-------|
--3--3--3-------|--0-----0--0--0-------|--1-----1--1--1-------|
--2--2--2-------|--0-----0--0--0-------|--2-----2--2--2-------|
--0--0--0-------|--0-----0--0--0-------|--2-----2--2--2-------|
----------------|--2-----2--2--2-------|--0-----0--0--0-------|
--2--2--2-------|--3-----3--3--3-------|----------------------|

-------------------|-------------------|----------------------|
--4-----4--4-------|--------4--4-------|--------4--4--4-------|
--4-----4--4-------|--------4--4-------|--------4--4--4-------|
--4-----4--4-------|--------4--4-------|--------4--4--4-------|
--2-----2--2-------|--0--------0-------|--3-------------------|
-------------------|-------------------|----------------------|

----------------------|--0-----0--0--0-------|----------------------|
--4--4--4--4--4-------|--0-----0--0--0-------|--3-----3--3--3-------|
--4--4--4--4--4-------|--0-----0--0--0-------|--2-----2--2--2-------|
--4--4--4--4--4-------|--2-----2--2--2-------|--0-----0--0--0-------|
----------------------|--2-----2--2--2-------|----------------------|
--2--2--2--2--2-------|--0-----0--0--0-------|--2-----2--2--2-------|

--3-----3--3--3-------|--0-----0--0--0-------|--0-----0--0--0-------|
--0-----0--0--0-------|--1-----1--1--1-------|--1-----1--1--1-------|
--0-----0--0--0-------|--2-----2--2--2-------|--0-----0--0--0-------|
--0-----0--0--0-------|--2-----2--2--2-------|--2-----2--2--2-------|
--2-----2--2--2-------|--0-----0--0--0-------|--3-----3--3--3-------|
--3-----3--3--3-------|----------------------|----------------------|

--0-----0--0--0-------|--0-----0--0-------|--0-----0--0-------|
--1-----1--1--1-------|--1-----1--1-------|--1-----1--1-------|
--0-----0--0--0-------|--0-----0--0-------|--0-----0--0-------|
--2-----2--2--2-------|--2-----2--2-------|--2-----2--2-------|
--3-----3--3--3-------|--3-----3--3-------|--3-----3--3-------|
----------------------|-------------------|-------------------|

And then outtro...
Learning Materials for Everyone at MusiciansFriend
Be Sociable, Share!

About The Author

No Comments